  0
SECTION
  2
HEADER
  9
$ACADVER
  1
AC1009
  9
$INSBASE
 10
-0.6764837990042009
 20
9.0
 30
0.0
  9
$EXTMIN
 10
-0.8284271247461898
 20
9.0
 30
0.0
  9
$EXTMAX
 10
51.0
 20
47.26462960687361
 30
0.0
  9
$LIMMIN
 10
0.0
 20
0.0
  9
$LIMMAX
 10
420.0
 20
297.0
  9
$ORTHOMODE
 70
     0
  9
$REGENMODE
 70
     0
  9
$FILLMODE
 70
     1
  9
$QTEXTMODE
 70
     0
  9
$MIRRTEXT
 70
     0
  9
$DRAGMODE
 70
     2
  9
$LTSCALE
 40
1.0
  9
$OSMODE
 70
     0
  9
$ATTMODE
 70
     1
  9
$TEXTSIZE
 40
3.5
  9
$TRACEWID
 40
0.1
  9
$TEXTSTYLE
  7
STANDARD
  9
$CLAYER
  8
ITEM_50
  9
$CELTYPE
  6
BYLAYER
  9
$CECOLOR
 62
   256
  9
$DIMSCALE
 40
1.0
  9
$DIMASZ
 40
2.0
  9
$DIMEXO
 40
1.0
  9
$DIMDLI
 40
8.0
  9
$DIMRND
 40
0.0
  9
$DIMDLE
 40
0.0
  9
$DIMEXE
 40
2.0
  9
$DIMTP
 40
0.1
  9
$DIMTM
 40
0.1
  9
$DIMTXT
 40
3.5
  9
$DIMCEN
 40
2.0
  9
$DIMTSZ
 40
0.0
  9
$DIMTOL
 70
     0
  9
$DIMLIM
 70
     0
  9
$DIMTIH
 70
     0
  9
$DIMTOH
 70
     0
  9
$DIMSE1
 70
     0
  9
$DIMSE2
 70
     0
  9
$DIMTAD
 70
     1
  9
$DIMZIN
 70
     0
  9
$DIMBLK
  1

  9
$DIMASO
 70
     1
  9
$DIMSHO
 70
     0
  9
$DIMPOST
  1

  9
$DIMAPOST
  1

  9
$DIMALT
 70
     0
  9
$DIMALTD
 70
     2
  9
$DIMALTF
 40
25.39999999999999
  9
$DIMLFAC
 40
1.0
  9
$DIMTOFL
 70
     0
  9
$DIMTVP
 40
0.0
  9
$DIMTIX
 70
     0
  9
$DIMSOXD
 70
     0
  9
$DIMSAH
 70
     0
  9
$DIMBLK1
  1

  9
$DIMBLK2
  1

  9
$DIMSTYLE
  2
*UNNAMED
  9
$DIMCLRD
 70
     0
  9
$DIMCLRE
 70
     0
  9
$DIMCLRT
 70
     0
  9
$DIMTFAC
 40
1.0
  9
$DIMGAP
 40
0.09
  9
$LUNITS
 70
     2
  9
$LUPREC
 70
     3
  9
$SKETCHINC
 40
0.1
  9
$FILLETRAD
 40
20.0
  9
$AUNITS
 70
     0
  9
$AUPREC
 70
     1
  9
$MENU
  1

  9
$ELEVATION
 40
0.0
  9
$PELEVATION
 40
0.0
  9
$THICKNESS
 40
0.0
  9
$LIMCHECK
 70
     0
  9
$BLIPMODE
 70
     0
  9
$CHAMFERA
 40
0.0
  9
$CHAMFERB
 40
0.0
  9
$SKPOLY
 70
     1
  9
$TDCREATE
 40
2448896.411179513
  9
$TDUPDATE
 40
2449393.430792592
  9
$TDINDWG
 40
0.0001603009
  9
$TDUSRTIMER
 40
0.0001603009
  9
$USRTIMER
 70
     1
  9
$ANGBASE
 50
0.0
  9
$ANGDIR
 70
     0
  9
$PDMODE
 70
     3
  9
$PDSIZE
 40
0.0
  9
$PLINEWID
 40
0.0
  9
$COORDS
 70
     2
  9
$SPLFRAME
 70
     0
  9
$SPLINETYPE
 70
     6
  9
$SPLINESEGS
 70
     8
  9
$ATTDIA
 70
     1
  9
$ATTREQ
 70
     1
  9
$HANDLING
 70
     0
  9
$HANDSEED
  5
CF
  9
$SURFTAB1
 70
     6
  9
$SURFTAB2
 70
     6
  9
$SURFTYPE
 70
     6
  9
$SURFU
 70
     6
  9
$SURFV
 70
     6
  9
$UCSNAME
  2

  9
$UCSORG
 10
0.0
 20
0.0
 30
0.0
  9
$UCSXDIR
 10
1.0
 20
0.0
 30
0.0
  9
$UCSYDIR
 10
0.0
 20
1.0
 30
0.0
  9
$PUCSNAME
  2

  9
$PUCSORG
 10
0.0
 20
0.0
 30
0.0
  9
$PUCSXDIR
 10
1.0
 20
0.0
 30
0.0
  9
$PUCSYDIR
 10
0.0
 20
1.0
 30
0.0
  9
$USERI1
 70
     0
  9
$USERI2
 70
     3
  9
$USERI3
 70
    15
  9
$USERI4
 70
     0
  9
$USERI5
 70
     0
  9
$USERR1
 40
1.0
  9
$USERR2
 40
1.0
  9
$USERR3
 40
0.0
  9
$USERR4
 40
1.0
  9
$USERR5
 40
0.0
  9
$WORLDVIEW
 70
     1
  9
$SHADEDGE
 70
     3
  9
$SHADEDIF
 70
    70
  9
$TILEMODE
 70
     1
  9
$MAXACTVP
 70
    16
  9
$PINSBASE
 10
0.0
 20
0.0
 30
0.0
  9
$PLIMCHECK
 70
     0
  9
$PEXTMIN
 10
1.000000000000000E+20
 20
1.000000000000000E+20
 30
1.000000000000000E+20
  9
$PEXTMAX
 10
-1.000000000000000E+20
 20
-1.000000000000000E+20
 30
-1.000000000000000E+20
  9
$PLIMMIN
 10
0.0
 20
0.0
  9
$PLIMMAX
 10
12.0
 20
9.0
  9
$UNITMODE
 70
     0
  9
$VISRETAIN
 70
     0
  9
$PLINEGEN
 70
     0
  9
$PSLTSCALE
 70
     0
  9
$TREEDEPTH
 70
  3020
  9
$DWGCODEPAGE
  3
undefined
  0
ENDSEC
  0
SECTION
  2
TABLES
  0
TABLE
  2
VPORT
 70
     2
  0
VPORT
  2
*ACTIVE
 70
     0
 10
0.0
 20
0.0
 11
1.0
 21
1.0
 12
25.73994121875312
 22
29.70779079781824
 13
0.0
 23
0.0
 14
1.0
 24
1.0
 15
10.0
 25
10.0
 16
0.0
 26
0.0
 36
1.0
 17
0.0
 27
0.0
 37
0.0
 40
41.41558159563648
 41
1.275675675675675
 42
50.0
 43
0.0
 44
0.0
 50
0.0
 51
0.0
 71
     0
 72
   100
 73
     1
 74
     1
 75
     0
 76
     0
 77
     0
 78
     0
  0
ENDTAB
  0
TABLE
  2
LTYPE
 70
     1
  0
LTYPE
  2
AUSGEZOGEN
 70
    64
  3
Solid line
 72
    65
 73
     0
 40
0.0
  0
ENDTAB
  0
TABLE
  2
LAYER
 70
     3
  0
LAYER
  2
0
 70
     0
 62
     7
  6
AUSGEZOGEN
  0
LAYER
  2
ITEM_50
 70
    64
 62
     7
  6
AUSGEZOGEN
  0
LAYER
  2
ITEM_HILFE
 70
    64
 62
     3
  6
AUSGEZOGEN
  0
ENDTAB
  0
TABLE
  2
STYLE
 70
     1
  0
STYLE
  2
STANDARD
 70
     0
 40
0.0
 41
1.0
 50
0.0
 71
     0
 42
3.5
  3
iso
  4

  0
ENDTAB
  0
TABLE
  2
VIEW
 70
     0
  0
ENDTAB
  0
TABLE
  2
UCS
 70
     0
  0
ENDTAB
  0
TABLE
  2
APPID
 70
     1
  0
APPID
  2
ACAD
 70
    64
  0
ENDTAB
  0
TABLE
  2
DIMSTYLE
 70
     0
  0
ENDTAB
  0
ENDSEC
  0
SECTION
  2
BLOCKS
  0
ENDSEC
  0
SECTION
  2
ENTITIES
  0
POINT
  8
ITEM_HILFE
 10
40.0
 20
36.00000000000002
 30
0.0
  0
POINT
  8
ITEM_HILFE
 10
40.0
 20
20.0
 30
0.0
  0
CIRCLE
  8
ITEM_50
 10
34.0
 20
28.00000000000002
 30
0.0
 40
2.5
  0
POINT
  8
ITEM_HILFE
 10
20.0
 20
36.00000000000002
 30
0.0
  0
POINT
  8
ITEM_HILFE
 10
0.0
 20
20.0
 30
0.0
  0
POINT
  8
ITEM_HILFE
 10
0.0
 20
36.00000000000002
 30
0.0
  0
CIRCLE
  8
ITEM_50
 10
6.0
 20
28.00000000000002
 30
0.0
 40
2.5
  0
POINT
  8
ITEM_HILFE
 10
19.99999999999997
 20
31.69999999999993
 30
0.0
  0
LINE
  8
ITEM_50
 10
20.0
 20
20.0
 30
0.0
 11
36.0
 21
20.0
 31
0.0
  0
ARC
  8
ITEM_50
 10
36.0
 20
24.0
 30
0.0
 40
4.0
 50
270.0
 51
0.0
  0
LINE
  8
ITEM_50
 10
40.0
 20
24.0
 30
0.0
 11
40.0
 21
32.00000000000002
 31
0.0
  0
ARC
  8
ITEM_50
 10
36.0
 20
32.00000000000002
 30
0.0
 40
4.0
 50
0.0
 51
90.0
  0
LINE
  8
ITEM_50
 10
36.0
 20
36.00000000000002
 30
0.0
 11
25.5
 21
36.00000000000002
 31
0.0
  0
ARC
  8
ITEM_50
 10
25.5
 20
34.50000000000002
 30
0.0
 40
1.5
 50
90.0
 51
180.0
  0
LINE
  8
ITEM_50
 10
24.0
 20
34.50000000000002
 30
0.0
 11
24.0
 21
32.69999999999996
 31
0.0
  0
ARC
  8
ITEM_50
 10
24.99999999999999
 20
32.69999999999996
 30
0.0
 40
0.9999999999999964
 50
180.0
 51
270.0000000000002
  0
LINE
  8
ITEM_50
 10
25.0
 20
31.69999999999996
 30
0.0
 11
28.76563793084039
 21
31.69999999999998
 31
0.0
  0
ARC
  8
ITEM_50
 10
28.76563914361536
 20
30.46563914361577
 30
0.0
 40
1.234360856384806
 50
323.5059537640961
 51
90.00005629381928
  0
ARC
  8
ITEM_50
 10
9.659999999999984
 20
44.6
 30
0.0
 40
24.99999999999999
 50
307.3222498749806
 51
323.5059469331745
  0
ARC
  8
ITEM_50
 10
22.39224253617562
 20
27.90000000000006
 30
0.0
 40
4.000000000000028
 50
269.9999999999989
 51
307.3222498749796
  0
LINE
  8
ITEM_50
 10
22.39224253617555
 20
23.90000000000003
 30
0.0
 11
20.0
 21
23.9
 31
0.0
  0
LINE
  8
ITEM_50
 10
20.0
 20
23.9
 30
0.0
 11
17.60775746382444
 21
23.90000000000003
 31
0.0
  0
ARC
  8
ITEM_50
 10
17.60775746382437
 20
27.90000000000006
 30
0.0
 40
4.000000000000028
 50
232.6777501250203
 51
270.000000000001
  0
ARC
  8
ITEM_50
 10
30.34000000000001
 20
44.6
 30
0.0
 40
24.99999999999999
 50
216.4940530668254
 51
232.6777501250193
  0
ARC
  8
ITEM_50
 10
11.23436085638463
 20
30.46563914361577
 30
0.0
 40
1.234360856384806
 50
89.99994370618071
 51
216.4940462359038
  0
LINE
  8
ITEM_50
 10
11.2343620691596
 20
31.69999999999998
 30
0.0
 11
15.0
 21
31.69999999999996
 31
0.0
  0
ARC
  8
ITEM_50
 10
15.0
 20
32.69999999999996
 30
0.0
 40
1.0
 50
269.9999999999998
 51
0.0
  0
LINE
  8
ITEM_50
 10
16.0
 20
32.69999999999996
 30
0.0
 11
16.0
 21
34.50000000000002
 31
0.0
  0
ARC
  8
ITEM_50
 10
14.5
 20
34.50000000000002
 30
0.0
 40
1.5
 50
0.0
 51
90.0
  0
LINE
  8
ITEM_50
 10
14.5
 20
36.00000000000002
 30
0.0
 11
4.0
 21
36.00000000000002
 31
0.0
  0
ARC
  8
ITEM_50
 10
4.0
 20
32.00000000000002
 30
0.0
 40
4.0
 50
90.0
 51
180.0
  0
LINE
  8
ITEM_50
 10
0.0
 20
32.00000000000002
 30
0.0
 11
0.0
 21
24.0
 31
0.0
  0
ARC
  8
ITEM_50
 10
4.0
 20
24.0
 30
0.0
 40
4.0
 50
180.0
 51
270.0
  0
LINE
  8
ITEM_50
 10
4.0
 20
20.0
 30
0.0
 11
20.0
 21
20.0
 31
0.0
  0
LINE
  8
ITEM_50
 10
40.0
 20
9.0
 30
0.0
 11
40.0
 21
10.0
 31
0.0
  0
LINE
  8
ITEM_50
 10
40.0
 20
10.0
 30
0.0
 11
0.0
 21
10.0
 31
0.0
  0
LINE
  8
ITEM_50
 10
0.0
 20
10.0
 30
0.0
 11
0.0
 21
9.0
 31
0.0
  0
LINE
  8
ITEM_50
 10
16.0
 20
9.0
 30
0.0
 11
16.0
 21
10.0
 31
0.0
  0
LINE
  8
ITEM_50
 10
24.0
 20
10.0
 30
0.0
 11
24.0
 21
9.0
 31
0.0
  0
LINE
  8
ITEM_50
 10
50.0
 20
20.0
 30
0.0
 11
51.0
 21
20.0
 31
0.0
  0
LINE
  8
ITEM_50
 10
51.0
 20
36.0
 30
0.0
 11
50.0
 21
36.0
 31
0.0
  0
LINE
  8
ITEM_50
 10
50.0
 20
36.0
 30
0.0
 11
50.0
 21
20.0
 31
0.0
  0
LINE
  8
ITEM_50
 10
39.99999999999685
 20
46.26462960687361
 30
0.0
 11
39.99999999999686
 21
47.26462960687361
 31
0.0
  0
LINE
  8
ITEM_50
 10
-0.0000000000031477
 20
47.26462960687361
 30
0.0
 11
-0.0000000000031477
 21
46.26462960687361
 31
0.0
  0
LINE
  8
ITEM_50
 10
-0.0000000000031477
 20
46.26462960687361
 30
0.0
 11
39.99999999999685
 21
46.26462960687361
 31
0.0
  0
LINE
  8
ITEM_50
 10
-0.0000000000031477
 20
47.26462960687361
 30
0.0
 11
39.99999999999685
 21
47.26462960687361
 31
0.0
  0
LINE
  8
ITEM_50
 10
51.0
 20
36.0
 30
0.0
 11
51.0
 21
20.0
 31
0.0
  0
LINE
  8
ITEM_50
 10
40.0
 20
9.0
 30
0.0
 11
0.0
 21
9.0
 31
0.0
  0
ENDSEC
  0
EOF
